ISO-10303-21;
HEADER;
FILE_DESCRIPTION (( 'STEP AP203' ),
    '1' );
FILE_NAME ('Entry thread seal - Metric and NPT.75 Metric and 2-1[2 NPT.STEP',
    '2013-02-07T10:14:36',
    ( '' ),
    ( '' ),
    'SwSTEP 2.0',
    'SolidWorks 2012',
    '' );
FILE_SCHEMA (( 'CONFIG_CONTROL_DESIGN' ));
ENDSEC;

DATA;
#1 = COORDINATED_UNIVERSAL_TIME_OFFSET ( 0, 0, .AHEAD. ) ;
#2 = PERSON_AND_ORGANIZATION ( #247, #139 ) ;
#3 = PERSON_AND_ORGANIZATION ( #247, #139 ) ;
#4 = APPROVAL_PERSON_ORGANIZATION ( #2, #248, #221 ) ;
#5 = CC_DESIGN_APPROVAL ( #248, ( #41 ) ) ;
#6 = DESIGN_CONTEXT ( 'detailed design', #218, 'design' ) ;
#7 = PRODUCT_DEFINITION_SHAPE ( 'NONE', 'NONE',  #41 ) ;
#8 = MANIFOLD_SOLID_BREP ( 'Revolve1', #75 ) ;
#9 = ADVANCED_BREP_SHAPE_REPRESENTATION ( 'Entry thread seal - Metric and NPT.75 Metric and 2-1[2 NPT', ( #8, #14 ), #65 ) ;
#10 = UNCERTAINTY_MEASURE_WITH_UNIT (LENGTH_MEASURE( 1.000000000000000100E-005 ), #208, 'distance_accuracy_value', 'NONE');
#11 = CALENDAR_DATE ( 2013, 7, 2 ) ;
#12 = DATE_AND_TIME ( #11, #13 ) ;
#13 = LOCAL_TIME ( 10, 14, 36.00000000000000000, #1 ) ;
#14 = AXIS2_PLACEMENT_3D ( 'NONE', #213, #214, #215 ) ;
#15 = PERSON_AND_ORGANIZATION ( #247, #139 ) ;
#16 = COORDINATED_UNIVERSAL_TIME_OFFSET ( 0, 0, .AHEAD. ) ;
#17 = LOCAL_TIME ( 10, 14, 36.00000000000000000, #16 ) ;
#18 = CALENDAR_DATE ( 2013, 7, 2 ) ;
#19 = DATE_AND_TIME ( #18, #17 ) ;
#20 = PERSON_AND_ORGANIZATION ( #247, #139 ) ;
#21 = APPROVAL_PERSON_ORGANIZATION ( #20, #235, #206 ) ;
#22 = COORDINATED_UNIVERSAL_TIME_OFFSET ( 0, 0, .AHEAD. ) ;
#23 = LOCAL_TIME ( 10, 14, 36.00000000000000000, #22 ) ;
#24 = CALENDAR_DATE ( 2013, 7, 2 ) ;
#25 = DATE_AND_TIME ( #24, #23 ) ;
#26 = APPROVAL_DATE_TIME ( #25, #235 ) ;
#27 = PERSON_AND_ORGANIZATION ( #247, #139 ) ;
#28 = PERSON_AND_ORGANIZATION ( #247, #139 ) ;
#29 = PERSON_AND_ORGANIZATION ( #247, #139 ) ;
#30 = COORDINATED_UNIVERSAL_TIME_OFFSET ( 0, 0, .AHEAD. ) ;
#31 = LOCAL_TIME ( 10, 14, 36.00000000000000000, #30 ) ;
#32 = CALENDAR_DATE ( 2013, 7, 2 ) ;
#33 = DATE_AND_TIME ( #32, #31 ) ;
#34 = PERSON_AND_ORGANIZATION ( #247, #139 ) ;
#35 = APPROVAL_PERSON_ORGANIZATION ( #34, #242, #223 ) ;
#36 = COORDINATED_UNIVERSAL_TIME_OFFSET ( 0, 0, .AHEAD. ) ;
#37 = LOCAL_TIME ( 10, 14, 36.00000000000000000, #36 ) ;
#38 = CALENDAR_DATE ( 2013, 7, 2 ) ;
#39 = DATE_AND_TIME ( #38, #37 ) ;
#40 = APPROVAL_DATE_TIME ( #39, #242 ) ;
#41 = PRODUCT_DEFINITION ( 'UNKNOWN', '', #234, #6 ) ;
#42 = CC_DESIGN_PERSON_AND_ORGANIZATION_ASSIGNMENT ( #3, #217, ( #246 ) ) ;
#43 = EDGE_CURVE ( 'NONE', #78, #77, #113, .T. ) ;
#44 = EDGE_CURVE ( 'NONE', #71, #72, #79, .T. ) ;
#45 = EDGE_CURVE ( 'NONE', #73, #70, #112, .T. ) ;
#46 = EDGE_CURVE ( 'NONE', #74, #78, #115, .T. ) ;
#47 = EDGE_CURVE ( 'NONE', #72, #71, #117, .T. ) ;
#48 = EDGE_CURVE ( 'NONE', #70, #73, #118, .T. ) ;
#49 = EDGE_CURVE ( 'NONE', #76, #77, #116, .T. ) ;
#50 = EDGE_CURVE ( 'NONE', #71, #73, #119, .T. ) ;
#51 = EDGE_CURVE ( 'NONE', #72, #70, #121, .T. ) ;
#52 = EDGE_CURVE ( 'NONE', #77, #76, #123, .T. ) ;
#53 = EDGE_CURVE ( 'NONE', #78, #74, #125, .T. ) ;
#54 = EDGE_CURVE ( 'NONE', #74, #76, #120, .T. ) ;
#55 = AXIS2_PLACEMENT_3D ( 'NONE', #176, #175, #174 ) ;
#56 = AXIS2_PLACEMENT_3D ( 'NONE', #189, #185, #178 ) ;
#57 = AXIS2_PLACEMENT_3D ( 'NONE', #155, #154, #153 ) ;
#58 = AXIS2_PLACEMENT_3D ( 'NONE', #156, #170, #169 ) ;
#59 = AXIS2_PLACEMENT_3D ( 'NONE', #168, #167, #183 ) ;
#60 = AXIS2_PLACEMENT_3D ( 'NONE', #159, #158, #157 ) ;
#61 = AXIS2_PLACEMENT_3D ( 'NONE', #173, #166, #165 ) ;
#62 = AXIS2_PLACEMENT_3D ( 'NONE', #162, #161, #186 ) ;
#63 = AXIS2_PLACEMENT_3D ( 'NONE', #197, #198, #193 ) ;
#64 = AXIS2_PLACEMENT_3D ( 'NONE', #192, #195, #196 ) ;
#65 =( GEOMETRIC_REPRESENTATION_CONTEXT ( 3 ) GLOBAL_UNCERTAINTY_ASSIGNED_CONTEXT ( ( #10 ) ) GLOBAL_UNIT_ASSIGNED_CONTEXT ( ( #208, #209, #210 ) ) REPRESENTATION_CONTEXT ( 'NONE', 'WORKASPACE' ) );
#66 = AXIS2_PLACEMENT_3D ( 'NONE', #200, #199, #194 ) ;
#67 = AXIS2_PLACEMENT_3D ( 'NONE', #148, #152, #181 ) ;
#68 = AXIS2_PLACEMENT_3D ( 'NONE', #151, #143, #207 ) ;
#69 = AXIS2_PLACEMENT_3D ( 'NONE', #225, #224, #146 ) ;
#70 = VERTEX_POINT ( 'NONE', #184 ) ;
#71 = VERTEX_POINT ( 'NONE', #187 ) ;
#72 = VERTEX_POINT ( 'NONE', #201 ) ;
#73 = VERTEX_POINT ( 'NONE', #202 ) ;
#74 = VERTEX_POINT ( 'NONE', #188 ) ;
#75 = CLOSED_SHELL ( 'NONE', ( #226, #228, #229, #230, #231, #227 ) ) ;
#76 = VERTEX_POINT ( 'NONE', #182 ) ;
#77 = VERTEX_POINT ( 'NONE', #191 ) ;
#78 = VERTEX_POINT ( 'NONE', #164 ) ;
#79 = CIRCLE ( 'NONE', #55, 37.61999999999999700 ) ;
#80 = EDGE_LOOP ( 'NONE', ( #104, #105, #106, #107 ) ) ;
#81 = EDGE_LOOP ( 'NONE', ( #100, #101 ) ) ;
#82 = EDGE_LOOP ( 'NONE', ( #108, #109 ) ) ;
#83 = EDGE_LOOP ( 'NONE', ( #96, #97, #98, #99 ) ) ;
#84 = EDGE_LOOP ( 'NONE', ( #110, #111 ) ) ;
#85 = EDGE_LOOP ( 'NONE', ( #89, #88, #90, #91 ) ) ;
#86 = EDGE_LOOP ( 'NONE', ( #92, #93, #94, #95 ) ) ;
#87 = EDGE_LOOP ( 'NONE', ( #102, #103 ) ) ;
#88 = ORIENTED_EDGE ( 'NONE', *, *, #50, .T. ) ;
#89 = ORIENTED_EDGE ( 'NONE', *, *, #44, .F. ) ;
#90 = ORIENTED_EDGE ( 'NONE', *, *, #45, .T. ) ;
#91 = ORIENTED_EDGE ( 'NONE', *, *, #51, .F. ) ;
#92 = ORIENTED_EDGE ( 'NONE', *, *, #46, .T. ) ;
#93 = ORIENTED_EDGE ( 'NONE', *, *, #43, .T. ) ;
#94 = ORIENTED_EDGE ( 'NONE', *, *, #49, .F. ) ;
#95 = ORIENTED_EDGE ( 'NONE', *, *, #54, .F. ) ;
#96 = ORIENTED_EDGE ( 'NONE', *, *, #43, .F. ) ;
#97 = ORIENTED_EDGE ( 'NONE', *, *, #53, .T. ) ;
#98 = ORIENTED_EDGE ( 'NONE', *, *, #54, .T. ) ;
#99 = ORIENTED_EDGE ( 'NONE', *, *, #52, .F. ) ;
#100 = ORIENTED_EDGE ( 'NONE', *, *, #48, .F. ) ;
#101 = ORIENTED_EDGE ( 'NONE', *, *, #45, .F. ) ;
#102 = ORIENTED_EDGE ( 'NONE', *, *, #49, .T. ) ;
#103 = ORIENTED_EDGE ( 'NONE', *, *, #52, .T. ) ;
#104 = ORIENTED_EDGE ( 'NONE', *, *, #50, .F. ) ;
#105 = ORIENTED_EDGE ( 'NONE', *, *, #47, .F. ) ;
#106 = ORIENTED_EDGE ( 'NONE', *, *, #51, .T. ) ;
#107 = ORIENTED_EDGE ( 'NONE', *, *, #48, .T. ) ;
#108 = ORIENTED_EDGE ( 'NONE', *, *, #46, .F. ) ;
#109 = ORIENTED_EDGE ( 'NONE', *, *, #53, .F. ) ;
#110 = ORIENTED_EDGE ( 'NONE', *, *, #47, .T. ) ;
#111 = ORIENTED_EDGE ( 'NONE', *, *, #44, .T. ) ;
#112 = CIRCLE ( 'NONE', #56, 37.61999999999999700 ) ;
#113 = LINE ( 'NONE', #180, #114 ) ;
#114 = VECTOR ( 'NONE', #179, 1000.000000000000000 ) ;
#115 = CIRCLE ( 'NONE', #57, 47.50000000000000000 ) ;
#116 = CIRCLE ( 'NONE', #60, 47.50000000000000000 ) ;
#117 = CIRCLE ( 'NONE', #58, 37.61999999999999700 ) ;
#118 = CIRCLE ( 'NONE', #59, 37.61999999999999700 ) ;
#119 = LINE ( 'NONE', #145, #122 ) ;
#120 = LINE ( 'NONE', #163, #128 ) ;
#121 = LINE ( 'NONE', #160, #124 ) ;
#122 = VECTOR ( 'NONE', #177, 1000.000000000000000 ) ;
#123 = CIRCLE ( 'NONE', #61, 47.50000000000000000 ) ;
#124 = VECTOR ( 'NONE', #172, 1000.000000000000000 ) ;
#125 = CIRCLE ( 'NONE', #62, 47.50000000000000000 ) ;
#126 = FACE_BOUND ( 'NONE', #84, .T. ) ;
#127 = FACE_OUTER_BOUND ( 'NONE', #80, .T. ) ;
#128 = VECTOR ( 'NONE', #171, 1000.000000000000000 ) ;
#129 = FACE_OUTER_BOUND ( 'NONE', #82, .T. ) ;
#130 = FACE_OUTER_BOUND ( 'NONE', #83, .T. ) ;
#131 = CYLINDRICAL_SURFACE ( 'NONE', #63, 37.61999999999999700 ) ;
#132 = FACE_BOUND ( 'NONE', #81, .T. ) ;
#133 = FACE_OUTER_BOUND ( 'NONE', #86, .T. ) ;
#134 = FACE_OUTER_BOUND ( 'NONE', #85, .T. ) ;
#135 = CYLINDRICAL_SURFACE ( 'NONE', #66, 47.50000000000000000 ) ;
#136 = SHAPE_DEFINITION_REPRESENTATION ( #7, #9 ) ;
#137 = CYLINDRICAL_SURFACE ( 'NONE', #67, 47.50000000000000000 ) ;
#138 = FACE_OUTER_BOUND ( 'NONE', #87, .T. ) ;
#139 = ORGANIZATION ( 'UNSPECIFIED', 'UNSPECIFIED', '' ) ;
#140 = CYLINDRICAL_SURFACE ( 'NONE', #69, 37.61999999999999700 ) ;
#141 = DATE_TIME_ROLE ( 'classification_date' ) ;
#142 = APPROVAL_STATUS ( 'not_yet_approved' ) ;
#143 = DIRECTION ( 'NONE',  ( 1.000000000000000000, 0.0000000000000000000, 0.0000000000000000000 ) ) ;
#144 = PERSON_AND_ORGANIZATION_ROLE ( 'classification_officer' ) ;
#145 = CARTESIAN_POINT ( 'NONE',  ( -39.90653472252495200, 4.607121258392342900E-015, -37.61999999999999700 ) ) ;
#146 = DIRECTION ( 'NONE',  ( 0.0000000000000000000, 0.0000000000000000000, 1.000000000000000000 ) ) ;
#147 = PLANE ( 'NONE',  #68 ) ;
#148 = CARTESIAN_POINT ( 'NONE',  ( -39.90653472252495200, 0.0000000000000000000, 0.0000000000000000000 ) ) ;
#149 = PERSON_AND_ORGANIZATION_ROLE ( 'creator' ) ;
#150 = PERSON_AND_ORGANIZATION_ROLE ( 'design_supplier' ) ;
#151 = CARTESIAN_POINT ( 'NONE',  ( -1.000000000000005300, 47.50000000000000000, 0.0000000000000000000 ) ) ;
#152 = DIRECTION ( 'NONE',  ( -1.000000000000000000, -0.0000000000000000000, -0.0000000000000000000 ) ) ;
#153 = DIRECTION ( 'NONE',  ( 0.0000000000000000000, 0.0000000000000000000, 1.000000000000000000 ) ) ;
#154 = DIRECTION ( 'NONE',  ( -1.000000000000000000, -0.0000000000000000000, -0.0000000000000000000 ) ) ;
#155 = CARTESIAN_POINT ( 'NONE',  ( 0.9999999999999940000, 0.0000000000000000000, 0.0000000000000000000 ) ) ;
#156 = CARTESIAN_POINT ( 'NONE',  ( 0.9999999999999940000, 0.0000000000000000000, 0.0000000000000000000 ) ) ;
#157 = DIRECTION ( 'NONE',  ( 0.0000000000000000000, 0.0000000000000000000, 1.000000000000000000 ) ) ;
#158 = DIRECTION ( 'NONE',  ( -1.000000000000000000, -0.0000000000000000000, -0.0000000000000000000 ) ) ;
#159 = CARTESIAN_POINT ( 'NONE',  ( -1.000000000000007800, 0.0000000000000000000, 0.0000000000000000000 ) ) ;
#160 = CARTESIAN_POINT ( 'NONE',  ( -39.90653472252495200, 0.0000000000000000000, 37.61999999999999700 ) ) ;
#161 = DIRECTION ( 'NONE',  ( -1.000000000000000000, -0.0000000000000000000, -0.0000000000000000000 ) ) ;
#162 = CARTESIAN_POINT ( 'NONE',  ( 0.9999999999999940000, 0.0000000000000000000, 0.0000000000000000000 ) ) ;
#163 = CARTESIAN_POINT ( 'NONE',  ( -39.90653472252495200, 0.0000000000000000000, 47.50000000000000000 ) ) ;
#164 = CARTESIAN_POINT ( 'NONE',  ( 0.9999999999999940000, 5.817072295949928200E-015, -47.50000000000000000 ) ) ;
#165 = DIRECTION ( 'NONE',  ( 0.0000000000000000000, 0.0000000000000000000, 1.000000000000000000 ) ) ;
#166 = DIRECTION ( 'NONE',  ( -1.000000000000000000, -0.0000000000000000000, -0.0000000000000000000 ) ) ;
#167 = DIRECTION ( 'NONE',  ( -1.000000000000000000, -0.0000000000000000000, -0.0000000000000000000 ) ) ;
#168 = CARTESIAN_POINT ( 'NONE',  ( -1.000000000000007800, 0.0000000000000000000, 0.0000000000000000000 ) ) ;
#169 = DIRECTION ( 'NONE',  ( 0.0000000000000000000, 0.0000000000000000000, 1.000000000000000000 ) ) ;
#170 = DIRECTION ( 'NONE',  ( -1.000000000000000000, -0.0000000000000000000, -0.0000000000000000000 ) ) ;
#171 = DIRECTION ( 'NONE',  ( -1.000000000000000000, -0.0000000000000000000, -0.0000000000000000000 ) ) ;
#172 = DIRECTION ( 'NONE',  ( -1.000000000000000000, -0.0000000000000000000, -0.0000000000000000000 ) ) ;
#173 = CARTESIAN_POINT ( 'NONE',  ( -1.000000000000007800, 0.0000000000000000000, 0.0000000000000000000 ) ) ;
#174 = DIRECTION ( 'NONE',  ( 0.0000000000000000000, 0.0000000000000000000, 1.000000000000000000 ) ) ;
#175 = DIRECTION ( 'NONE',  ( -1.000000000000000000, -0.0000000000000000000, -0.0000000000000000000 ) ) ;
#176 = CARTESIAN_POINT ( 'NONE',  ( 0.9999999999999940000, 0.0000000000000000000, 0.0000000000000000000 ) ) ;
#177 = DIRECTION ( 'NONE',  ( -1.000000000000000000, -0.0000000000000000000, -0.0000000000000000000 ) ) ;
#178 = DIRECTION ( 'NONE',  ( 0.0000000000000000000, 0.0000000000000000000, 1.000000000000000000 ) ) ;
#179 = DIRECTION ( 'NONE',  ( -1.000000000000000000, -0.0000000000000000000, -0.0000000000000000000 ) ) ;
#180 = CARTESIAN_POINT ( 'NONE',  ( -39.90653472252495200, 5.817072295949928200E-015, -47.50000000000000000 ) ) ;
#181 = DIRECTION ( 'NONE',  ( 0.0000000000000000000, 0.0000000000000000000, 1.000000000000000000 ) ) ;
#182 = CARTESIAN_POINT ( 'NONE',  ( -1.000000000000007800, 0.0000000000000000000, 47.50000000000000000 ) ) ;
#183 = DIRECTION ( 'NONE',  ( 0.0000000000000000000, 0.0000000000000000000, 1.000000000000000000 ) ) ;
#184 = CARTESIAN_POINT ( 'NONE',  ( -1.000000000000007800, 0.0000000000000000000, 37.61999999999999700 ) ) ;
#185 = DIRECTION ( 'NONE',  ( -1.000000000000000000, -0.0000000000000000000, -0.0000000000000000000 ) ) ;
#186 = DIRECTION ( 'NONE',  ( 0.0000000000000000000, 0.0000000000000000000, 1.000000000000000000 ) ) ;
#187 = CARTESIAN_POINT ( 'NONE',  ( 0.9999999999999940000, 4.607121258392342900E-015, -37.61999999999999700 ) ) ;
#188 = CARTESIAN_POINT ( 'NONE',  ( 0.9999999999999940000, 0.0000000000000000000, 47.50000000000000000 ) ) ;
#189 = CARTESIAN_POINT ( 'NONE',  ( -1.000000000000007800, 0.0000000000000000000, 0.0000000000000000000 ) ) ;
#190 = PLANE ( 'NONE',  #64 ) ;
#191 = CARTESIAN_POINT ( 'NONE',  ( -1.000000000000007800, 5.817072295949928200E-015, -47.50000000000000000 ) ) ;
#192 = CARTESIAN_POINT ( 'NONE',  ( 0.9999999999999947800, 37.61999999999999700, 0.0000000000000000000 ) ) ;
#193 = DIRECTION ( 'NONE',  ( 0.0000000000000000000, 0.0000000000000000000, 1.000000000000000000 ) ) ;
#194 = DIRECTION ( 'NONE',  ( 0.0000000000000000000, 0.0000000000000000000, 1.000000000000000000 ) ) ;
#195 = DIRECTION ( 'NONE',  ( -1.000000000000000000, 0.0000000000000000000, -0.0000000000000000000 ) ) ;
#196 = DIRECTION ( 'NONE',  ( -0.0000000000000000000, 0.0000000000000000000, 1.000000000000000000 ) ) ;
#197 = CARTESIAN_POINT ( 'NONE',  ( -39.90653472252495200, 0.0000000000000000000, 0.0000000000000000000 ) ) ;
#198 = DIRECTION ( 'NONE',  ( -1.000000000000000000, -0.0000000000000000000, -0.0000000000000000000 ) ) ;
#199 = DIRECTION ( 'NONE',  ( -1.000000000000000000, -0.0000000000000000000, -0.0000000000000000000 ) ) ;
#200 = CARTESIAN_POINT ( 'NONE',  ( -39.90653472252495200, 0.0000000000000000000, 0.0000000000000000000 ) ) ;
#201 = CARTESIAN_POINT ( 'NONE',  ( 0.9999999999999940000, 0.0000000000000000000, 37.61999999999999700 ) ) ;
#202 = CARTESIAN_POINT ( 'NONE',  ( -1.000000000000007800, 4.607121258392342900E-015, -37.61999999999999700 ) ) ;
#203 = SECURITY_CLASSIFICATION_LEVEL ( 'unclassified' ) ;
#204 = DATE_TIME_ROLE ( 'creation_date' ) ;
#205 = APPROVAL_STATUS ( 'not_yet_approved' ) ;
#206 = APPROVAL_ROLE ( '' ) ;
#207 = DIRECTION ( 'NONE',  ( 0.0000000000000000000, 0.0000000000000000000, -1.000000000000000000 ) ) ;
#208 =( LENGTH_UNIT ( ) NAMED_UNIT ( * ) SI_UNIT ( .MILLI., .METRE. ) );
#209 =( NAMED_UNIT ( * ) PLANE_ANGLE_UNIT ( ) SI_UNIT ( $, .RADIAN. ) );
#210 =( NAMED_UNIT ( * ) SI_UNIT ( $, .STERADIAN. ) SOLID_ANGLE_UNIT ( ) );
#211 = APPLICATION_PROTOCOL_DEFINITION ( 'international standard', 'config_control_design', 1994, #212 ) ;
#212 = APPLICATION_CONTEXT ( 'configuration controlled 3d designs of mechanical parts and assemblies' ) ;
#213 = CARTESIAN_POINT ( 'NONE',  ( 0.0000000000000000000, 0.0000000000000000000, 0.0000000000000000000 ) ) ;
#214 = DIRECTION ( 'NONE',  ( 0.0000000000000000000, 0.0000000000000000000, 1.000000000000000000 ) ) ;
#215 = DIRECTION ( 'NONE',  ( 1.000000000000000000, 0.0000000000000000000, 0.0000000000000000000 ) ) ;
#216 = MECHANICAL_CONTEXT ( 'NONE', #212, 'mechanical' ) ;
#217 = PERSON_AND_ORGANIZATION_ROLE ( 'design_owner' ) ;
#218 = APPLICATION_CONTEXT ( 'configuration controlled 3d designs of mechanical parts and assemblies' ) ;
#219 = APPLICATION_PROTOCOL_DEFINITION ( 'international standard', 'config_control_design', 1994, #218 ) ;
#220 = APPROVAL_STATUS ( 'not_yet_approved' ) ;
#221 = APPROVAL_ROLE ( '' ) ;
#222 = PERSON_AND_ORGANIZATION_ROLE ( 'creator' ) ;
#223 = APPROVAL_ROLE ( '' ) ;
#224 = DIRECTION ( 'NONE',  ( -1.000000000000000000, -0.0000000000000000000, -0.0000000000000000000 ) ) ;
#225 = CARTESIAN_POINT ( 'NONE',  ( -39.90653472252495200, 0.0000000000000000000, 0.0000000000000000000 ) ) ;
#226 = ADVANCED_FACE ( 'NONE', ( #134 ), #131, .F. ) ;
#227 = ADVANCED_FACE ( 'NONE', ( #129, #126 ), #190, .F. ) ;
#228 = ADVANCED_FACE ( 'NONE', ( #133 ), #135, .T. ) ;
#229 = ADVANCED_FACE ( 'NONE', ( #130 ), #137, .T. ) ;
#230 = ADVANCED_FACE ( 'NONE', ( #132, #138 ), #147, .F. ) ;
#231 = ADVANCED_FACE ( 'NONE', ( #127 ), #140, .F. ) ;
#232 = CC_DESIGN_PERSON_AND_ORGANIZATION_ASSIGNMENT ( #15, #222, ( #41 ) ) ;
#233 = CC_DESIGN_DATE_AND_TIME_ASSIGNMENT ( #19, #204, ( #41 ) ) ;
#234 = PRODUCT_DEFINITION_FORMATION_WITH_SPECIFIED_SOURCE ( 'ANY', '', #246, .NOT_KNOWN. ) ;
#235 = APPROVAL ( #205, 'UNSPECIFIED' ) ;
#236 = CC_DESIGN_APPROVAL ( #235, ( #234 ) ) ;
#237 = CC_DESIGN_PERSON_AND_ORGANIZATION_ASSIGNMENT ( #27, #149, ( #234 ) ) ;
#238 = CC_DESIGN_PERSON_AND_ORGANIZATION_ASSIGNMENT ( #28, #150, ( #234 ) ) ;
#239 = SECURITY_CLASSIFICATION ( '', '', #203 ) ;
#240 = CC_DESIGN_PERSON_AND_ORGANIZATION_ASSIGNMENT ( #29, #144, ( #239 ) ) ;
#241 = CC_DESIGN_DATE_AND_TIME_ASSIGNMENT ( #33, #141, ( #239 ) ) ;
#242 = APPROVAL ( #142, 'UNSPECIFIED' ) ;
#243 = CC_DESIGN_APPROVAL ( #242, ( #239 ) ) ;
#244 = CC_DESIGN_SECURITY_CLASSIFICATION ( #239, ( #234 ) ) ;
#245 = PRODUCT_RELATED_PRODUCT_CATEGORY ( 'detail', '', ( #246 ) ) ;
#246 = PRODUCT ( 'Entry thread seal - Metric and NPT.75 Metric and 2-1[2 NPT', 'Entry thread seal - Metric and NPT.75 Metric and 2-1[2 NPT', '', ( #216 ) ) ;
#247 = PERSON ( 'UNSPECIFIED', 'UNSPECIFIED', 'UNSPECIFIED', ('UNSPECIFIED'), ('UNSPECIFIED'), ('UNSPECIFIED') ) ;
#248 = APPROVAL ( #220, 'UNSPECIFIED' ) ;
#249 = APPROVAL_DATE_TIME ( #12, #248 ) ;
ENDSEC;
END-ISO-10303-21;
